« 2008年2月 | トップページ | 2008年4月 »

2008年3月26日 (水)

演奏旅行♪

まだ復活もしていないRiverpoolですが来月演奏旅行の仕事が入ってきました。happy01
とあるロイヤルホテルの260人規模の会場へ機材持込で演奏。飲みたい放題で宿泊付きとのことです。ちょうどライブの本番練習にもなりうれしいお話ですが、他のメンバーはbeerbarwine「飲み放題」というのが魅力みたいです。セットリストはほぼ決まりましたがあと1~2回しか練習できません。まあbeer酒席なのでどれだけはじけられるかが重要なポイントかもです。

| | コメント (0) | トラックバック (0)

2008年3月21日 (金)

気の早い桜?

自宅のすぐ近くの桜が満開になりましたので一足早く花見ができました。この桜はいつも早めに咲くので違う種類の桜だと思います。一年の間の1週間ほどなので短いですね。花の命は
Img_0542_3 

| | コメント (0) | トラックバック (0)

2008年3月13日 (木)

やっぱり来ました

いつもは2月になるとすぐに花粉症になっていました。今年はぜんぜんだったので、治ってしまった!とおもっていました。
が!そうは簡単にいきませんでした。でも約一ヶ月助かりました。happy01

仕事帰りにホワイトデイのお返しを買うためにcakeケーキ屋さんに寄りました。混んでます!似たようなサラリーマン男で(笑)
みんな頑張れ-!
贈り物になれてないのでいろいろ悩みます。自分の楽器ばかり買ってないでもっと周りの人に分けないとね。

And in the end
The love you take
Is equal to the love you make.

| | コメント (0) | トラックバック (0)

2008年3月 6日 (木)

Rain

この曲のベースはメチャかっこいいと思いますが音数が多く完コピしようとすると大変です。コーラスもとりながら早いフレーズを弾かなければならないのでテクニックも必要ですし、毎回BASSパターンが違うので覚えるのが大変。かなり苦手なんですね~。
セットリストに選ばれたのでこの際、音を完全にコピーしてマスターしようと思いました。とりあえず途中までで間違いもあるかもですがUPしました。
が!

横の行数が少ないので上手く表示できませんでした。

再トライ

Intro
   G                                      x2
G|---1212-------10h12-10|
D|---------10h12--------|
A|10--------------------|
E|----------------------|
G|---121212-----10h12-10--|--------|
D|---------10h12----------|--------|
A|10----------------------|10*-----|
E|------------------------|--------|
First Verse
  G                   C     D      G                   
G|---1212-------10---|------------|
D|--------10/12----12|10-10-12*---|
A|10-----------------|------------|
E|-------------------|------------|
    C      D    G                G   
G|---1212--------10---|-----------|
D|---------10/12----12|10-10-12-12|
A|10------------------|-----------|
E|--------------------|-----------|

G                              C               
G|---1212-----10---|-----------|
D|-------10/12---12|10-10-----8|
A|10---------------|------1010-|
E|-----------------|-----------|
   C                        G
G|------------|----------------|
D|10-10----810|-----10h12-10h12|
A|-----1010---|10-10-----------|
E|------------|----------------|
   G
G|----------------|
D|-----10h12-10h12|
A|10-10-----------|
E|----------------|
Second Verse
  G             C      D              G             
G|---------10--|-----------10--------|
D|----10/12--12|10-10-10h12--1210\8--|
A|10-----------|-------------------10|
E|-------------|---------------------|
  C      D              G
G|----------10--|
D|-----10/12--12|
A|10-10---------|
E|--------------|
  G
G|-----------10--------|-----------|
D|10-10-10h12--1210\8--|-----------|
A|-------------------10|10-10-----8|
E|---------------------|------1010-|
C                       2/4 G
G|-----------|-----------|----|----------|
D|10-10-----8|10-10-10-10|----|----------|
A|------1010-|-----------|10*-|10-10-----|
E|-----------|-----------|----|------10*-|
C
G|--------------|
D|--------------|
A|10-10---------|
E|------10-10-10|
Chorus
  G                        
G|10h12-10h12-10h12-10h12| X4
D|-----------------------|
A|-----------------------|
E|-----------------------|
  G                         
G|--1212-----10--|--1212-----10-12|
D|------10/12--12|------10/12-----|
A|10-------------|10--------------|
E|---------------|----------------|
  G                         
G|--10h12-10h12-10h12|
D|-------------------|
A|10-----------------|
E|-------------------|

  G                        
G|10h12-10h12-10h12-10h12| X3
D|-----------------------|
A|-----------------------|
E|-----------------------| 
                                                                                                                           
でも見にくい!
ここまでコピーしたところでこの曲はボツになりました。impact

| | コメント (0) | トラックバック (0)

« 2008年2月 | トップページ | 2008年4月 »